ISO-10303-21;
HEADER;
FILE_DESCRIPTION (( 'STEP AP214' ),
    '1' );
FILE_NAME ('am-4107 0.194 ID 0.375 OD 0.750 Long Nylon Spacer.STEP',
    '2023-07-26T19:38:56',
    ( '' ),
    ( '' ),
    'SwSTEP 2.0',
    'SolidWorks 2022',
    '' );
FILE_SCHEMA (( 'AUTOMOTIVE_DESIGN' ));
ENDSEC;

DATA;
#1 = CIRCLE ( 'NONE', #146, 0.1875000000000000278 ) ;
#2 = PRODUCT_DEFINITION_CONTEXT ( 'detailed design', #201, 'design' ) ;
#3 = VERTEX_POINT ( 'NONE', #196 ) ;
#4 = PRODUCT_RELATED_PRODUCT_CATEGORY ( 'part', '', ( #80 ) ) ;
#5 = EDGE_LOOP ( 'NONE', ( #122, #44, #43, #159 ) ) ;
#6 = ADVANCED_BREP_SHAPE_REPRESENTATION ( 'am-4107 0.194 ID 0.375 OD 0.750 Long Nylon Spacer', ( #83, #119 ), #186 ) ;
#7 = CARTESIAN_POINT ( 'NONE',  ( 0.000000000000000000, 0.000000000000000000, -0.1875000000000000278 ) ) ;
#8 = ORIENTED_EDGE ( 'NONE', *, *, #193, .T. ) ;
#9 = ADVANCED_FACE ( 'NONE', ( #175 ), #74, .T. ) ;
#10 = CYLINDRICAL_SURFACE ( 'NONE', #82, 0.09600000000000001588 ) ;
#11 = DIRECTION ( 'NONE',  ( 0.000000000000000000, 0.000000000000000000, 1.000000000000000000 ) ) ;
#12 = CARTESIAN_POINT ( 'NONE',  ( 2.296212748401286801E-17, 0.7500000000000001110, 0.1875000000000000278 ) ) ;
#13 = COLOUR_RGB ( '',1.000000000000000000, 1.000000000000000000, 1.000000000000000000 ) ;
#14 = EDGE_CURVE ( 'NONE', #107, #91, #208, .T. ) ;
#15 = PLANE ( 'NONE',  #169 ) ;
#16 = FILL_AREA_STYLE ('',( #149 ) ) ;
#17 = DIMENSIONAL_EXPONENTS ( 1.000000000000000000, 0.000000000000000000, 0.000000000000000000, 0.000000000000000000, 0.000000000000000000, 0.000000000000000000, 0.000000000000000000 ) ;
#18 = VECTOR ( 'NONE', #78, 39.37007874015748143 ) ;
#19 = FILL_AREA_STYLE ('',( #25 ) ) ;
#20 = PRESENTATION_STYLE_ASSIGNMENT (( #84 ) ) ;
#21 = ORIENTED_EDGE ( 'NONE', *, *, #108, .F. ) ;
#22 = AXIS2_PLACEMENT_3D ( 'NONE', #218, #199, #11 ) ;
#23 = DIRECTION ( 'NONE',  ( 0.000000000000000000, 0.000000000000000000, 1.000000000000000000 ) ) ;
#24 = VERTEX_POINT ( 'NONE', #7 ) ;
#25 = FILL_AREA_STYLE_COLOUR ( '', #88 ) ;
#26 = CARTESIAN_POINT ( 'NONE',  ( 0.000000000000000000, 0.000000000000000000, 0.000000000000000000 ) ) ;
#27 = VERTEX_POINT ( 'NONE', #64 ) ;
#28 = PRODUCT_DEFINITION_FORMATION_WITH_SPECIFIED_SOURCE ( 'ANY', '', #80, .NOT_KNOWN. ) ;
#29 =( GEOMETRIC_REPRESENTATION_CONTEXT ( 3 ) GLOBAL_UNCERTAINTY_ASSIGNED_CONTEXT ( ( #71 ) ) GLOBAL_UNIT_ASSIGNED_CONTEXT ( ( #31, #202, #204 ) ) REPRESENTATION_CONTEXT ( 'NONE', 'WORKASPACE' ) );
#30 = DIRECTION ( 'NONE',  ( 0.000000000000000000, 0.000000000000000000, 1.000000000000000000 ) ) ;
#31 =( CONVERSION_BASED_UNIT ( 'INCH', #216 ) LENGTH_UNIT ( ) NAMED_UNIT ( #154 ) );
#32 = VECTOR ( 'NONE', #111, 39.37007874015748143 ) ;
#33 = DIRECTION ( 'NONE',  ( 0.000000000000000000, 0.000000000000000000, 1.000000000000000000 ) ) ;
#34 = AXIS2_PLACEMENT_3D ( 'NONE', #45, #181, #94 ) ;
#35 = CARTESIAN_POINT ( 'NONE',  ( 1.175660927181458941E-17, 0.000000000000000000, 0.09600000000000001588 ) ) ;
#36 = DIRECTION ( 'NONE',  ( 0.000000000000000000, 1.000000000000000000, 0.000000000000000000 ) ) ;
#37 = DIRECTION ( 'NONE',  ( 0.000000000000000000, 1.000000000000000000, 0.000000000000000000 ) ) ;
#38 =( GEOMETRIC_REPRESENTATION_CONTEXT ( 3 ) GLOBAL_UNCERTAINTY_ASSIGNED_CONTEXT ( ( #101 ) ) GLOBAL_UNIT_ASSIGNED_CONTEXT ( ( #86, #209, #39 ) ) REPRESENTATION_CONTEXT ( 'NONE', 'WORKASPACE' ) );
#39 =( NAMED_UNIT ( * ) SI_UNIT ( $, .STERADIAN. ) SOLID_ANGLE_UNIT ( ) );
#40 = ORIENTED_EDGE ( 'NONE', *, *, #136, .T. ) ;
#41 = EDGE_LOOP ( 'NONE', ( #87, #143 ) ) ;
#42 = CIRCLE ( 'NONE', #22, 0.09600000000000001588 ) ;
#43 = ORIENTED_EDGE ( 'NONE', *, *, #85, .F. ) ;
#44 = ORIENTED_EDGE ( 'NONE', *, *, #183, .T. ) ;
#45 = CARTESIAN_POINT ( 'NONE',  ( 0.000000000000000000, 0.7500000000000001110, 0.000000000000000000 ) ) ;
#46 = MECHANICAL_DESIGN_GEOMETRIC_PRESENTATION_REPRESENTATION (  '', ( #213 ), #29 ) ;
#47 = CYLINDRICAL_SURFACE ( 'NONE', #77, 0.09600000000000001588 ) ;
#48 = CIRCLE ( 'NONE', #120, 0.09600000000000001588 ) ;
#49 = CARTESIAN_POINT ( 'NONE',  ( 0.000000000000000000, 0.7500000000000001110, -0.09600000000000001588 ) ) ;
#50 = EDGE_CURVE ( 'NONE', #180, #90, #151, .T. ) ;
#51 = DIRECTION ( 'NONE',  ( 0.000000000000000000, 0.000000000000000000, 1.000000000000000000 ) ) ;
#52 = CARTESIAN_POINT ( 'NONE',  ( 0.000000000000000000, 0.7500000000000001110, -0.1875000000000000278 ) ) ;
#53 = CIRCLE ( 'NONE', #150, 0.09600000000000001588 ) ;
#54 = ADVANCED_FACE ( 'NONE', ( #130 ), #198, .T. ) ;
#55 = SURFACE_STYLE_FILL_AREA ( #19 ) ;
#56 = EDGE_LOOP ( 'NONE', ( #102, #192 ) ) ;
#57 = CARTESIAN_POINT ( 'NONE',  ( 2.296212748401286801E-17, 0.7500000000000001110, 0.1875000000000000278 ) ) ;
#58 = ORIENTED_EDGE ( 'NONE', *, *, #200, .F. ) ;
#59 =( LENGTH_UNIT ( ) NAMED_UNIT ( * ) SI_UNIT ( $, .METRE. ) );
#60 = EDGE_LOOP ( 'NONE', ( #128, #148, #197, #106 ) ) ;
#61 = ADVANCED_FACE ( 'NONE', ( #165 ), #10, .F. ) ;
#62 = VECTOR ( 'NONE', #158, 39.37007874015748143 ) ;
#63 = ORIENTED_EDGE ( 'NONE', *, *, #190, .F. ) ;
#64 = CARTESIAN_POINT ( 'NONE',  ( 1.175660927181458941E-17, 0.7500000000000001110, 0.09600000000000001588 ) ) ;
#65 = DIRECTION ( 'NONE',  ( 0.000000000000000000, 1.000000000000000000, 0.000000000000000000 ) ) ;
#66 = DIRECTION ( 'NONE',  ( 0.000000000000000000, -0.000000000000000000, 1.000000000000000000 ) ) ;
#67 = SURFACE_STYLE_USAGE ( .BOTH. , #153 ) ;
#68 = SURFACE_STYLE_FILL_AREA ( #16 ) ;
#69 = AXIS2_PLACEMENT_3D ( 'NONE', #113, #65, #187 ) ;
#70 = LENGTH_MEASURE_WITH_UNIT ( LENGTH_MEASURE( 0.02539999999999999897 ), #59 );
#71 = UNCERTAINTY_MEASURE_WITH_UNIT (LENGTH_MEASURE( 1.000000000000000082E-05 ), #31, 'distance_accuracy_value', 'NONE');
#72 = ORIENTED_EDGE ( 'NONE', *, *, #134, .F. ) ;
#73 = CARTESIAN_POINT ( 'NONE',  ( 0.000000000000000000, 0.7500000000000001110, 0.000000000000000000 ) ) ;
#74 = CYLINDRICAL_SURFACE ( 'NONE', #93, 0.1875000000000000278 ) ;
#75 = CARTESIAN_POINT ( 'NONE',  ( 0.000000000000000000, 0.7500000000000001110, 0.000000000000000000 ) ) ;
#76 = CARTESIAN_POINT ( 'NONE',  ( 2.296212748401286801E-17, 0.000000000000000000, 0.1875000000000000278 ) ) ;
#77 = AXIS2_PLACEMENT_3D ( 'NONE', #185, #110, #166 ) ;
#78 = DIRECTION ( 'NONE',  ( -0.000000000000000000, -1.000000000000000000, -0.000000000000000000 ) ) ;
#79 = CARTESIAN_POINT ( 'NONE',  ( 0.000000000000000000, 0.000000000000000000, 0.000000000000000000 ) ) ;
#80 = PRODUCT ( 'am-4107 0.194 ID 0.375 OD 0.750 Long Nylon Spacer', 'am-4107 0.194 ID 0.375 OD 0.750 Long Nylon Spacer', '', ( #104 ) ) ;
#81 = CARTESIAN_POINT ( 'NONE',  ( 0.000000000000000000, 0.000000000000000000, -0.09600000000000001588 ) ) ;
#82 = AXIS2_PLACEMENT_3D ( 'NONE', #75, #184, #131 ) ;
#83 = MANIFOLD_SOLID_BREP ( 'Boss-Extrude1', #132 ) ;
#84 = SURFACE_STYLE_USAGE ( .BOTH. , #189 ) ;
#85 = EDGE_CURVE ( 'NONE', #91, #107, #42, .T. ) ;
#86 =( CONVERSION_BASED_UNIT ( 'INCH', #223 ) LENGTH_UNIT ( ) NAMED_UNIT ( #219 ) );
#87 = ORIENTED_EDGE ( 'NONE', *, *, #85, .T. ) ;
#88 = COLOUR_RGB ( '',1.000000000000000000, 1.000000000000000000, 1.000000000000000000 ) ;
#89 = DIRECTION ( 'NONE',  ( 1.000000000000000000, 0.000000000000000000, 0.000000000000000000 ) ) ;
#90 = VERTEX_POINT ( 'NONE', #52 ) ;
#91 = VERTEX_POINT ( 'NONE', #81 ) ;
#92 = EDGE_LOOP ( 'NONE', ( #210, #72 ) ) ;
#93 = AXIS2_PLACEMENT_3D ( 'NONE', #179, #147, #105 ) ;
#94 = DIRECTION ( 'NONE',  ( 0.000000000000000000, 0.000000000000000000, -1.000000000000000000 ) ) ;
#95 = DIRECTION ( 'NONE',  ( 0.000000000000000000, 1.000000000000000000, 0.000000000000000000 ) ) ;
#96 = AXIS2_PLACEMENT_3D ( 'NONE', #112, #36, #33 ) ;
#97 = DIRECTION ( 'NONE',  ( 0.000000000000000000, 1.000000000000000000, 0.000000000000000000 ) ) ;
#98 = CARTESIAN_POINT ( 'NONE',  ( 1.175660927181458941E-17, 0.7500000000000001110, 0.09600000000000001588 ) ) ;
#99 = FACE_OUTER_BOUND ( 'NONE', #56, .T. ) ;
#100 = FACE_OUTER_BOUND ( 'NONE', #60, .T. ) ;
#101 = UNCERTAINTY_MEASURE_WITH_UNIT (LENGTH_MEASURE( 1.000000000000000082E-05 ), #86, 'distance_accuracy_value', 'NONE');
#102 = ORIENTED_EDGE ( 'NONE', *, *, #200, .T. ) ;
#103 = EDGE_LOOP ( 'NONE', ( #163, #58, #177, #40 ) ) ;
#104 = PRODUCT_CONTEXT ( 'NONE', #156, 'mechanical' ) ;
#105 = DIRECTION ( 'NONE',  ( 0.000000000000000000, 0.000000000000000000, -1.000000000000000000 ) ) ;
#106 = ORIENTED_EDGE ( 'NONE', *, *, #14, .F. ) ;
#107 = VERTEX_POINT ( 'NONE', #35 ) ;
#108 = EDGE_CURVE ( 'NONE', #142, #24, #167, .T. ) ;
#109 = AXIS2_PLACEMENT_3D ( 'NONE', #26, #162, #30 ) ;
#110 = DIRECTION ( 'NONE',  ( -0.000000000000000000, -1.000000000000000000, -0.000000000000000000 ) ) ;
#111 = DIRECTION ( 'NONE',  ( -0.000000000000000000, -1.000000000000000000, -0.000000000000000000 ) ) ;
#112 = CARTESIAN_POINT ( 'NONE',  ( 0.000000000000000000, 0.000000000000000000, 0.000000000000000000 ) ) ;
#113 = CARTESIAN_POINT ( 'NONE',  ( 0.000000000000000000, 0.000000000000000000, 0.000000000000000000 ) ) ;
#114 = VECTOR ( 'NONE', #174, 39.37007874015748143 ) ;
#115 =( LENGTH_UNIT ( ) NAMED_UNIT ( * ) SI_UNIT ( $, .METRE. ) );
#116 = ADVANCED_FACE ( 'NONE', ( #99, #171 ), #15, .T. ) ;
#117 = CARTESIAN_POINT ( 'NONE',  ( 0.000000000000000000, 0.7500000000000001110, 0.000000000000000000 ) ) ;
#118 =( NAMED_UNIT ( * ) SI_UNIT ( $, .STERADIAN. ) SOLID_ANGLE_UNIT ( ) );
#119 = AXIS2_PLACEMENT_3D ( 'NONE', #191, #23, #89 ) ;
#120 = AXIS2_PLACEMENT_3D ( 'NONE', #117, #37, #157 ) ;
#121 =( CONVERSION_BASED_UNIT ( 'INCH', #70 ) LENGTH_UNIT ( ) NAMED_UNIT ( #17 ) );
#122 = ORIENTED_EDGE ( 'NONE', *, *, #207, .T. ) ;
#123 = ORIENTED_EDGE ( 'NONE', *, *, #50, .F. ) ;
#124 = PRODUCT_DEFINITION ( 'UNKNOWN', '', #28, #2 ) ;
#125 = APPLICATION_PROTOCOL_DEFINITION ( 'draft international standard', 'automotive_design', 1998, #156 ) ;
#126 = ORIENTED_EDGE ( 'NONE', *, *, #136, .F. ) ;
#127 = AXIS2_PLACEMENT_3D ( 'NONE', #79, #97, #220 ) ;
#128 = ORIENTED_EDGE ( 'NONE', *, *, #183, .F. ) ;
#129 = ADVANCED_FACE ( 'NONE', ( #172, #206 ), #203, .F. ) ;
#130 = FACE_OUTER_BOUND ( 'NONE', #215, .T. ) ;
#131 = DIRECTION ( 'NONE',  ( 0.000000000000000000, 0.000000000000000000, -1.000000000000000000 ) ) ;
#132 = CLOSED_SHELL ( 'NONE', ( #61, #54, #116, #129, #9, #140 ) ) ;
#133 = LINE ( 'NONE', #49, #32 ) ;
#134 = EDGE_CURVE ( 'NONE', #27, #3, #53, .T. ) ;
#135 = CARTESIAN_POINT ( 'NONE',  ( 0.000000000000000000, 0.7500000000000001110, 0.000000000000000000 ) ) ;
#136 = EDGE_CURVE ( 'NONE', #24, #142, #195, .T. ) ;
#137 = PRODUCT_DEFINITION_SHAPE ( 'NONE', 'NONE',  #124 ) ;
#138 = DIRECTION ( 'NONE',  ( 0.000000000000000000, 0.000000000000000000, 1.000000000000000000 ) ) ;
#139 =( LENGTH_UNIT ( ) NAMED_UNIT ( * ) SI_UNIT ( $, .METRE. ) );
#140 = ADVANCED_FACE ( 'NONE', ( #100 ), #47, .F. ) ;
#141 = UNCERTAINTY_MEASURE_WITH_UNIT (LENGTH_MEASURE( 1.000000000000000082E-05 ), #121, 'distance_accuracy_value', 'NONE');
#142 = VERTEX_POINT ( 'NONE', #76 ) ;
#143 = ORIENTED_EDGE ( 'NONE', *, *, #14, .T. ) ;
#144 = SHAPE_DEFINITION_REPRESENTATION ( #137, #6 ) ;
#145 = DIRECTION ( 'NONE',  ( 0.000000000000000000, 1.000000000000000000, 0.000000000000000000 ) ) ;
#146 = AXIS2_PLACEMENT_3D ( 'NONE', #222, #211, #138 ) ;
#147 = DIRECTION ( 'NONE',  ( -0.000000000000000000, -1.000000000000000000, -0.000000000000000000 ) ) ;
#148 = ORIENTED_EDGE ( 'NONE', *, *, #134, .T. ) ;
#149 = FILL_AREA_STYLE_COLOUR ( '', #13 ) ;
#150 = AXIS2_PLACEMENT_3D ( 'NONE', #168, #188, #51 ) ;
#151 = CIRCLE ( 'NONE', #173, 0.1875000000000000278 ) ;
#152 = EDGE_CURVE ( 'NONE', #3, #91, #133, .T. ) ;
#153 = SURFACE_SIDE_STYLE ('',( #68 ) ) ;
#154 = DIMENSIONAL_EXPONENTS ( 1.000000000000000000, 0.000000000000000000, 0.000000000000000000, 0.000000000000000000, 0.000000000000000000, 0.000000000000000000, 0.000000000000000000 ) ;
#155 = LINE ( 'NONE', #57, #114 ) ;
#156 = APPLICATION_CONTEXT ( 'automotive_design' ) ;
#157 = DIRECTION ( 'NONE',  ( 0.000000000000000000, 0.000000000000000000, 1.000000000000000000 ) ) ;
#158 = DIRECTION ( 'NONE',  ( -0.000000000000000000, -1.000000000000000000, -0.000000000000000000 ) ) ;
#159 = ORIENTED_EDGE ( 'NONE', *, *, #152, .F. ) ;
#160 = CARTESIAN_POINT ( 'NONE',  ( 0.000000000000000000, 0.7500000000000001110, -0.1875000000000000278 ) ) ;
#161 = EDGE_LOOP ( 'NONE', ( #126, #21 ) ) ;
#162 = DIRECTION ( 'NONE',  ( 0.000000000000000000, 1.000000000000000000, 0.000000000000000000 ) ) ;
#163 = ORIENTED_EDGE ( 'NONE', *, *, #193, .F. ) ;
#164 = PRESENTATION_LAYER_ASSIGNMENT (  '', '', ( #205 ) ) ;
#165 = FACE_OUTER_BOUND ( 'NONE', #5, .T. ) ;
#166 = DIRECTION ( 'NONE',  ( 0.000000000000000000, 0.000000000000000000, -1.000000000000000000 ) ) ;
#167 = CIRCLE ( 'NONE', #69, 0.1875000000000000278 ) ;
#168 = CARTESIAN_POINT ( 'NONE',  ( 0.000000000000000000, 0.7500000000000001110, 0.000000000000000000 ) ) ;
#169 = AXIS2_PLACEMENT_3D ( 'NONE', #135, #95, #66 ) ;
#170 = LINE ( 'NONE', #98, #18 ) ;
#171 = FACE_BOUND ( 'NONE', #92, .T. ) ;
#172 = FACE_OUTER_BOUND ( 'NONE', #161, .T. ) ;
#173 = AXIS2_PLACEMENT_3D ( 'NONE', #73, #145, #214 ) ;
#174 = DIRECTION ( 'NONE',  ( -0.000000000000000000, -1.000000000000000000, -0.000000000000000000 ) ) ;
#175 = FACE_OUTER_BOUND ( 'NONE', #103, .T. ) ;
#176 = LINE ( 'NONE', #160, #62 ) ;
#177 = ORIENTED_EDGE ( 'NONE', *, *, #190, .T. ) ;
#178 = APPLICATION_PROTOCOL_DEFINITION ( 'draft international standard', 'automotive_design', 1998, #201 ) ;
#179 = CARTESIAN_POINT ( 'NONE',  ( 0.000000000000000000, 0.7500000000000001110, 0.000000000000000000 ) ) ;
#180 = VERTEX_POINT ( 'NONE', #12 ) ;
#181 = DIRECTION ( 'NONE',  ( -0.000000000000000000, -1.000000000000000000, -0.000000000000000000 ) ) ;
#182 = PRESENTATION_STYLE_ASSIGNMENT (( #67 ) ) ;
#183 = EDGE_CURVE ( 'NONE', #27, #107, #170, .T. ) ;
#184 = DIRECTION ( 'NONE',  ( -0.000000000000000000, -1.000000000000000000, -0.000000000000000000 ) ) ;
#185 = CARTESIAN_POINT ( 'NONE',  ( 0.000000000000000000, 0.7500000000000001110, 0.000000000000000000 ) ) ;
#186 =( GEOMETRIC_REPRESENTATION_CONTEXT ( 3 ) GLOBAL_UNCERTAINTY_ASSIGNED_CONTEXT ( ( #141 ) ) GLOBAL_UNIT_ASSIGNED_CONTEXT ( ( #121, #194, #118 ) ) REPRESENTATION_CONTEXT ( 'NONE', 'WORKASPACE' ) );
#187 = DIRECTION ( 'NONE',  ( 0.000000000000000000, 0.000000000000000000, 1.000000000000000000 ) ) ;
#188 = DIRECTION ( 'NONE',  ( 0.000000000000000000, 1.000000000000000000, 0.000000000000000000 ) ) ;
#189 = SURFACE_SIDE_STYLE ('',( #55 ) ) ;
#190 = EDGE_CURVE ( 'NONE', #90, #24, #176, .T. ) ;
#191 = CARTESIAN_POINT ( 'NONE',  ( 0.000000000000000000, 0.000000000000000000, 0.000000000000000000 ) ) ;
#192 = ORIENTED_EDGE ( 'NONE', *, *, #50, .T. ) ;
#193 = EDGE_CURVE ( 'NONE', #180, #142, #155, .T. ) ;
#194 =( NAMED_UNIT ( * ) PLANE_ANGLE_UNIT ( ) SI_UNIT ( $, .RADIAN. ) );
#195 = CIRCLE ( 'NONE', #96, 0.1875000000000000278 ) ;
#196 = CARTESIAN_POINT ( 'NONE',  ( 0.000000000000000000, 0.7500000000000001110, -0.09600000000000001588 ) ) ;
#197 = ORIENTED_EDGE ( 'NONE', *, *, #152, .T. ) ;
#198 = CYLINDRICAL_SURFACE ( 'NONE', #34, 0.1875000000000000278 ) ;
#199 = DIRECTION ( 'NONE',  ( 0.000000000000000000, 1.000000000000000000, 0.000000000000000000 ) ) ;
#200 = EDGE_CURVE ( 'NONE', #90, #180, #1, .T. ) ;
#201 = APPLICATION_CONTEXT ( 'automotive_design' ) ;
#202 =( NAMED_UNIT ( * ) PLANE_ANGLE_UNIT ( ) SI_UNIT ( $, .RADIAN. ) );
#203 = PLANE ( 'NONE',  #127 ) ;
#204 =( NAMED_UNIT ( * ) SI_UNIT ( $, .STERADIAN. ) SOLID_ANGLE_UNIT ( ) );
#205 = STYLED_ITEM ( 'NONE', ( #20 ), #6 ) ;
#206 = FACE_BOUND ( 'NONE', #41, .T. ) ;
#207 = EDGE_CURVE ( 'NONE', #3, #27, #48, .T. ) ;
#208 = CIRCLE ( 'NONE', #109, 0.09600000000000001588 ) ;
#209 =( NAMED_UNIT ( * ) PLANE_ANGLE_UNIT ( ) SI_UNIT ( $, .RADIAN. ) );
#210 = ORIENTED_EDGE ( 'NONE', *, *, #207, .F. ) ;
#211 = DIRECTION ( 'NONE',  ( 0.000000000000000000, 1.000000000000000000, 0.000000000000000000 ) ) ;
#212 = ORIENTED_EDGE ( 'NONE', *, *, #108, .T. ) ;
#213 = STYLED_ITEM ( 'NONE', ( #182 ), #83 ) ;
#214 = DIRECTION ( 'NONE',  ( 0.000000000000000000, 0.000000000000000000, 1.000000000000000000 ) ) ;
#215 = EDGE_LOOP ( 'NONE', ( #123, #8, #212, #63 ) ) ;
#216 = LENGTH_MEASURE_WITH_UNIT ( LENGTH_MEASURE( 0.02539999999999999897 ), #115 );
#217 = MECHANICAL_DESIGN_GEOMETRIC_PRESENTATION_REPRESENTATION (  '', ( #205 ), #38 ) ;
#218 = CARTESIAN_POINT ( 'NONE',  ( 0.000000000000000000, 0.000000000000000000, 0.000000000000000000 ) ) ;
#219 = DIMENSIONAL_EXPONENTS ( 1.000000000000000000, 0.000000000000000000, 0.000000000000000000, 0.000000000000000000, 0.000000000000000000, 0.000000000000000000, 0.000000000000000000 ) ;
#220 = DIRECTION ( 'NONE',  ( 0.000000000000000000, -0.000000000000000000, 1.000000000000000000 ) ) ;
#221 = PRESENTATION_LAYER_ASSIGNMENT (  '', '', ( #213 ) ) ;
#222 = CARTESIAN_POINT ( 'NONE',  ( 0.000000000000000000, 0.7500000000000001110, 0.000000000000000000 ) ) ;
#223 = LENGTH_MEASURE_WITH_UNIT ( LENGTH_MEASURE( 0.02539999999999999897 ), #139 );
ENDSEC;
END-ISO-10303-21;
